{instrum_title}

Running Wild - Black Hand Inn Аккорды, Табы


Black Hand Inn by Running Wild
off Black Hand Inn (1994)
* Words and music by Rolf Kasparek (1994)
Transcribed by Stefan Gabriel
e-mail: kahnn@tpgi.com.au
Legend
Fb  - full bend
fbr - full bend then release
hb  - half bend
~   - vibrato
/   - tremolo picking

4/4 time sig.
Fast Tempo
Intro (copied an octave above by other guitar)
|---------------|-------------|-------------|---------------|-------------|-------|
|---------------|-------------|-------------|---------------|-------------|-------|
|---------------|-------------|-------------|---------------|-------------|-------|
|---------------|-------------|-4--2--------|---------------|-------------|-------|
|-0--2--5--2--0-|-2--5--2--0--|-/--/--5--4--|-0--2--5--2--0-|-2--5--2--0--|-------|
|-/--/--/--/--/-|-/--/--/--/--|-------/--/--|-/--/--/--/--/-|-/--/--/--/--|-2--5--|
									    /  /
|---------------|-------------|-------------|---------------|-------------|-------|
|---------------|-------------|-------------|---------------|-------------|-------|
|---------------|-------------|-------------|---------------|-------------|-------|
|---------------|-------------|-4--2--------|---------------|-------------|-2-----|
|-0--2--5--2--0-|-2--5--2--0--|-/--/--5--4--|-0--2--5--2--0-|-2--5--2--0--|-/--0--|
|-/--/--/--/--/-|-/--/--/--/--|-------/--/--|-/--/--/--/--/-|-/--/--/--/--|----/--|
|---------|---------|---------|------|------|---------|------------|-------|
|---------|---------|---------|------|------|---------|------------|-------|
|*--------|---------|---------|------|------|---------|------------|-------|
|*--------|---------|---------|------|------|---------|------------|-4-----|
|--2--4---|-5--4--2-|-4--2--0-|-2----|-2--4-|-5--4--2-|-4--5--4--2-|-/-----|
|--/--/---|-/--/--/-|-/--/--/-|-/--2-|-/--/-|-/--/--/-|-/--/--/--/-|-------|
					     /
|--------|-------|---------|------|------|---------|----------|-----||
|--------|-------|---------|------|------|---------|----------|-----||
|--------|-------|---------|------|------|---------|----------|----*||
|-2--4-2-|-------|---------|------|------|---------|----------|----*||
|-/--/-/-|-5--2--|-2--4--5-|-4----|-2--4-|-5--4--2-|--------4-|-2---||
|--------|-/--/--|-/--/--/-|-/--2-|-/--/-|-/--/--/-|-5---2--/-|-/---||
						     /   /

Verse
|-----------------|-----------------|-----------------|-----------------|
|-----------------|-----------------|-----------------|-----------------|
|-----------------|-----------------|-----------------|-----------------|
|-----------------|-----------------|-----------------|-----------------|
|-2-2-2-2-2-2-2-2-|-2-2-2-2-2-2-2-2-|-2-2-2-2-2-2-2-2-|-5-5-5-5-5-5-5-5-|
|-----------------|-----------------|-----------------|-----------------|
  P.M. . . . . . . . . . . . . . . . . . . . . . . . . . . . . . . . . ]
|-----------------|-----------------|-----------------|-----------------|
|-----------------|-----------------|-----------------|-----------------|
|-----------------|-----------------|-----------------|-----------------|
|-----------------|-----------------|-----------------|-----------------|
|-2-2-2-2-2-2-2-2-|-2-2-2-2-2-2-2-2-|-2-2-2-2-2-2-2-2-|-2-2-5-5-0-0-0-0-|
|-----------------|-----------------|-----------------|-----------------|
  P.M. . . . . . . . . . . . . . . . . . . . . . . . . . . . . . . . . ]
|-----------------|-----------------|-----------------|-----------------|
|-----------------|-----------------|-----------------|-----------------|
|-----------------|-----------------|-----------------|-----------------|
|-----------------|-----------------|-----------------|-----------------|
|-2-2-2-2-2-2-2-2-|-2-2-2-2-2-2-2-2-|-2-2-2-2-2-2-2-2-|-5-5-5-5-5-5-5-5-|
|-----------------|-----------------|-----------------|-----------------|
  P.M. . . . . . . . . . . . . . . . . . . . . . . . . . . . . . . . . ]
|-----------------|-----------------|-----------------|-----------||
|-----------------|-----------------|-----------------|--7--------||
|-----------------|-----------------|-----------------|--6---7--9-||
|-----------------|-----------------|-----------------|--4---7--9-||
|-2-2-2-2-2-2-2-2-|-2-2-2-2-2-2-2-2-|-2-2-2-2-2-2-2-2-|------5--7-||
|-----------------|-----------------|-----------------|-----------||
  P.M. . . . . . . . . . . . . . . . . . . . . . . . ]

Bridge
|------------------|------------|-----------------|-----------|
|------------------|------------|-----------------|-----------|
|*-7---------------|---------7--|-9---------------|---------9-|
|*-7---------------|---------7--|-9---------------|---------9-|
|--5--5-5-5-5-5-5--|-5-5-5-5-5--|-7--7-7-7-7-7-7--|-7-7-7-7-7-|
|------------------|------------|-----------------|-----------|
      P.M. . . . . . . . . .]        P.M.. .  . . . . . . ]
|-----------------|-----------------|-----------------|----*-------------||
|-----------------|-----------------|-----------------|---(5)-----*------||
|-----------------|-----------------|-----------------|---(4)--2-(2)--4-*||
|-----------------|-----------------|-----------------|-4-(2)--2-(2)--4-*||
|-2-2-2-2-5-5-2-2-|-0-0-2-2-5-5-2-2-|-2-2-2-2-5-5-2-2-|-4------0-(0)--2--||
|-----------------|-----------------|-----------------|-2----------------||
                                                         (* 2nd time only)

Chorus
|----|---------|------------|----------||
|----|-3-------|----3--5--3-|----3-----||
|-4--|-2--4--2-|-4--2--4--2-|-4--2--2--||
|-4--|-0--4--2-|-4--0--2--0-|-4--0--2--||
|-2--|----2--0-|-2----------|-2-----0--||
|----|---------|------------|----------||

Interlude
|-----------------|-----------------|-----------------|-----------------|
|-----------------|-----------------|-----------------|-----------------|
|-----------------|-----------------|-----------------|-----------------|
|-----------------|-----------------|-----------------|-----------------|
|-0-0-2-2-2-2-2-2-|-2-2-2-2-2-2-2-2-|-5-5-2-2-2-2-2-2-|-2-2-2-2-0-0-2-2-|
|-----------------|-----------------|-----------------|-----------------|
|-----------------|-----------------|-----------------|-----------------|
|-----------------|-----------------|-----------------|-----------------|
|-----------------|-----------------|-----------------|-----------------|
|-----------------|-----------------|-----------------|-----------------|
|-----0-0-0-0-0-0-|-0-0-0-0-0-0-0-0-|-5-5-0-0-7-7-0-0-|-5-5-0-0-5-5-7-7-|
|-3-3-------------|-----------------|-----------------|-----------------|

Solo
 B5                G5         A5   B5              G5        A5 etc
|-----A.H---------|---------------|---------------|--------------|
|-A.H.-5-A.H. .  .|. . . . . . .]-|---------------|--------------|
|--4~-----7-4~--2-|-4~--2-4-2-2~--|---------------|--------------|
|-----------------|---------------|-----2---------|--------------|
|-----------------|---------------|-2~----5-2~--0-|-2~----A.H--5-|
|-----------------|---------------|---------------|-----5--5~----|
|-------------|-----------|----------------------------|-------------------------|
|-------------|-----------|-/10p8p7---7h8h10p8p7---7h8-|-12p107-10p75-7p53----|
|---4---------|-----------|---------7------------7-----|----------------------4~-|
|-4---7-4-7---|-4---------|----------------------------|-------------------------|
|-----------7-|---5-7-A.H-|----------------------------|-------------------------|
|-------------|--------7~-|----------------------------|-------------------------|
|---------------------|-------------------|-----------------------|---------------|
|12-15-12-15fbr-15-12-|---12--------------|-----------------------|---------------|
|---------------------|14----11-14~-------|12----11----12----14---|12----11-------|
|---------------------|-------------12-14-|---12----12----12----12|---12----12-14~|
|---------------------|-------------------|-----------------------|---------------|
|---------------------|-------------------|-----------------------|---------------|
 copied an octave below
|-17fb-(17)r-14-------17-|-14-14--------|-------14-----------|-17-14----14-------|
|---------------15-17----|-------15-17~-|----15-----17-15----|-------17----17----|
|------------------------|--------------|-16--------------16-|----------------16-|
|------------------------|--------------|--------------------|-------------------|
|------------------------|--------------|--------------------|-------------------|
|------------------------|--------------|--------------------|-------------------|
|-----||
|-15~-||
|-----||
|-----||
|-----||
|-----||

Song Structure
Intro 		Intro
Verse1		Verse (x2)
Verse2		Bridge
Chorus		Chorus (x2)
Interlude	Interlude (x2)
Verse3		Verse (x2)
Verse4		Bridge
Chorus		Chorus (x2)
Interlude	Interlude (x2)
Solo		Solo
Verse5		Bridge
Chorus		Chorus (x2)
Interlude	Interlude (x2)
Outro		Intro  (first part only)
шаблоны для dle 11.2
https://guitar1st.ru/27108-black-hand-inn.html
Пожалуйста не удаляйте ссылку на источник!

Видео


Аппликатура распознанных аккордов:

Добавить комментарий

Оставить комментарий

Кликните на изображение чтобы обновить код, если он неразборчив