{instrum_title}

Screeching Weasel - Guest List Аккорды, Табы


Song Title: Guest List
Artist: Screeching Weasel
----------------------------------------------
Intro.
G----------------------------------------
D----------------------------------------
A---2------------------------------------ x 1
E--------4----0--------------------------
Verse 1
G--------------------------------------
D-------4--1--22--1-----22--1----------
A---22---------------2---------2------- x 2
E---------------------------------0----
Verse 2
G-------------------------------------------------------
D-------------------------------------------------------
A---2222--------2222--------2222--------2222------------ x 1
E---------4--0--------4--0--------4--0--------4--0------
Verse 3
G--------------------------------------------------
D--------------------------------------------------
A---2222--------2222--------2222------------------- x 2
E---------4--0--------4--0--------4--0--55555555---
Verse 4
G-----------------------------------------------------
D--------------2222--4444--------------2222--4444-----
A--2222--4444--------------2222--4444----------------- x 1
E-----------------------------------------------------
Now return to the beginning and play the whole song again but skip verse 2.
Once you are done doing that play verses 1 and 5.
Verse 5
G--------------------------
D-------4--1--22--1--------
A---22---------------2----- x 4
E--------------------------
Now play verses 4 and 6.
Verse 6
G--------------------------
D-------4--1--22--1--------
A---22---------------2----- x 4
E--------------------------
That is All. If there are any questions you can email me.
Submitted by:  Jeff Barry (barry32@colorado.net)
шаблоны для dle 11.2
https://guitar1st.ru/24235-guest-list.html
Пожалуйста не удаляйте ссылку на источник!

Видео


Аппликатура распознанных аккордов:

Добавить комментарий

Оставить комментарий

Кликните на изображение чтобы обновить код, если он неразборчив