{instrum_title}

Screeching Weasel - First Day Of Summer Аккорды, Табы


-----------------------------------------------------------------------------
                 FIRST DAY OF SUMMER   SCREECHING WEASEL    
-----------------------------------------------------------------------------
blythe@pathcom.com              > MEANS STRUM
INTRO
G]-----------------]
D]-----------------]
A]---------5-7-5---]
E]-5-5-4-2-------5-]
VERSE
G]----------------------]
D]----------------------]
A]-----------5>-7>-5----]
E]-5>-5-4-2>---------5>-]
PRE-CHRUS
G]---------------------]
D]---------------------]
A]-2>---------2>-------]
E]----2>-5>-0----2>-5>-]
CHORUSx2
G]----------------------------]
D]----------------------------]
A]----5>----5>----7>----5>-7>-]
E]-5>----5>----5>----5>-------]
VERSE
PRE-CHORUS
CHORUS
HAVE YOU EVER NOTICED...
G]-------------------------]
D]-------------------------]
A]-------5>-7>-------5>-7>-]
E]-2>-0>-------2>-0>-------]
PLEASE DON'T STOPx3
G]-------------]
D]-------------]
A]----7>----5>-]
E]-5>----5>----]
HERE COMES SUMMERx16
G]-------]
D]-------]
A]----5>-]
E]-5>----]
INTRO
PRE-CHORUS
CHORUS
PLEASE DON'T STOP PART
шаблоны для dle 11.2
https://guitar1st.ru/24238-first-day-of-summer.html
Пожалуйста не удаляйте ссылку на источник!

Видео


Аппликатура распознанных аккордов:

Добавить комментарий

Оставить комментарий

Кликните на изображение чтобы обновить код, если он неразборчив