{instrum_title}

Screeching Weasel - I Wanna Be Naked Аккорды, Табы


-------------------------------------------------------------------------------
			     I Wanna Be Naked - Screeching Weasel
-------------------------------------------------------------------------------
By: Christopher Taylor
intro
G|---------------------------------------------------------------------------|
D|---------------------------------------------------------------------------|
A|---4-4-4-4-4-4-4-4-4-4-2--4-4-4-4-4-4-4-4-4-4--2-4-4-4-4-4-4-4-4-4-4-2-0----|
E|---------------------------------------------------------------------------|
verse
G|---------------------------------------------------------------------------|
D|---------------------------------------------------------------------------|
A|---4-4-4-4-4-4-4-4-4-4-2-0-0-0-0-0-0-2-2-2-2-2-2---------------------------|
E|---------------------------------------------------------------------------|
chorus
G|---------------------------------------------------------------------------|
D|---------------------------------------------------------------------------|
A|---4-4-4-4-7-7-7-7-0-0-0-0-2-2-2-2-----------------------------------------|
E|---------------------------------------------------------------------------|
Ramones part
G|---------------------------------------------------------------------------|
D|---------------------------------------------------------------------------|
A|---4-4-4-4-9-9-9-9-11-11-11-11-4-4-4-4-------------------------------------|
E|---------------------------------------------------------------------------|

===============================================================================
шаблоны для dle 11.2
https://guitar1st.ru/24249-i-wanna-be-naked.html
Пожалуйста не удаляйте ссылку на источник!

Видео


Аппликатура распознанных аккордов:

Добавить комментарий

Оставить комментарий

Кликните на изображение чтобы обновить код, если он неразборчив