{instrum_title}

Стрыкало Валентин - Девочка Аккорды, Табы


Intro: С (х2)
1|-х-----х-х-----х-х-----х-х---х--
2|-1-----1-1-----1-1-----1-1---х--
3|-0-----0-0-----0-0-----0-0---0--
4|-2-----2-2-----2-2-----2-3---2--
5|-3-----3-3-----3-3-----3-х---х--
6|-х-----х-х-----х-х-----х-х---х--
| | | | | | | |
Куплет 1:
С                         F
Проснулась ночью девочка, такая неприступная,
Am                        G
Чуть капельку рассержена, подушка вся в крови.
Сказала: "Меня предали, без синих глаз оставили,
Тарелкой в меня кинули, разбив стакан любви..."
Припев:
Dm G Am
Ее мальчик далеко в семи морях
Dm G Е Am
Пьет других девчонок сок, поет им песни.
Dm G Am
Может быть все нечестно так,
G F Е
Но только вот, наверно, интересней.
Куплет 2:
Ушла, раздевшись, насовсем, сыграла шутку злую ли ?
Не возвратилась никогда и может умерла.
Глаза закрыла, крикнула, в растрепанные волосы
Кинжал воткнув расплавленный, забыла позвонить.
Припев
Am G
2|--------- -0-------0-------0-------------- --0------0--------------
3|-------2- -----2-------2-----2------------ ------2-----2----------- (х2)
4|-----2--- -----------------------2-------- ----------------0-------
5|-0-3----- -------------------------------- ------------------------
| | | | | | | | | | | | | | | |
-1.--------------------¬
Am G
2|--------- -0---0-------------------------- -0----------------------
3|-------2- ---2---------------------------2 ----2------------------- (х2)
4|-----2--- -----------------------------2-- ------2-----------------
5|-0-3----- -------------------------0-3---- ------------------------
| | | | | | | | | | | | | | | |
-2.-----------
G Dm
2|-0-----------------------1-0---0 -1---
3|---2-------------------------2-- -----
4|-----0-------------------------- -----
5|-------------------------------- -----
| | | | | | | | |
Сноrus:
G F G
Но только вот, наверно, интересней (интересней) ...
С
Е-е-а-аа
шаблоны для dle 11.2
https://guitar1st.ru/7551-devochka.html
Пожалуйста не удаляйте ссылку на источник!

Видео


Аппликатура распознанных аккордов:

Добавить комментарий

Оставить комментарий

Кликните на изображение чтобы обновить код, если он неразборчив