{instrum_title}

Testament - Dnr Аккорды, Табы


i think testament plays it just 1 1/2 steps down but its easier to play 1/2
step down with 6th string 1 1/2 down.
lo to hi: C# G# C# F# A# d#
main riff:
:-----------------------------------------------------------------------
:-------------------8--------------------------------------8------------
:-0-------3h5p3h5p3-6-------3h5p3h5p3--6---0-----3h5p3h5p3-6------6-3-5-
:-0-0-0-0----------0--0-0-0----------0-6-0-0-0-0----------0--0-000-0----
    .....          .  .....          .   .   ...          .  ..... . 
bridge
gtr1
:----------------------------------------------------------------
:-5555555-555-555/666666333333/65555555-555-555/666666/8888886-
:----------------------------------------------------------------
  ......  ..  ..  .....   ....    .....  ..  ..   ....   ....
gtr2
:-3333333-333-333/555555222222/53333333-333-333/555555/7777775-
:----------------------------------------------------------------
:----------------------------------------------------------------
  ......  ..  ..  .....   ....    .....  ..  ..   ....   ....
gtr1 cont
:----------------------------------------------------8------5----
:-5555555-555-555/666666333333/65555555-555-555-----6------3----
:------------------------------------------------0000---0000-----
  ......  ..  ..  .....   ....    .....  ..  ..  ....   ....
gtr2 cont
:-3333333-333-333/555555222222/53333333-333-333-----8------5----
:----------------------------------------------------6------3----
:------------------------------------------------0000---0000-----
  ......  ..  ..  .....   ....    .....  ..  ..  ....   ....
cool riff
:-------------7-6-------------
:-8-7-8-7-7-6-5-4-7-6---------
:-6-5-6-5-5-4-----5-4-6-5-4-0-
:--------0---0--------6-5-4-0-
         .   .
interlude (this sounds close)
:------------------------------------------------------
:-------------------------------------10p555558p555555-
:-5555555555510p5555555558p55555555555-----------------
  ...........   .........  ...........    ....   .....
wings of sadness....
:-----------------------------------------------------------------------------
:-555555555555555555556666666555555333333666666666666666666688888886666666666-
:-----------------------------------------------------------------------------
:-----------------------------------------------------------------------------
:-555555555555555556666666555555333333111111111111111111133333335555555666666-
:-----------------------------------------------------------------------------
god save me now!!!!!
:------------------------------------------
:-5555555555555555555555555555555555555555- back to main riff
:------------------------------------------

there it is. this song fuckin rules. check out my band Ded End at www.dedend.20m.com. 
-Chris
шаблоны для dle 11.2
https://guitar1st.ru/22704-dnr.html
Пожалуйста не удаляйте ссылку на источник!

Видео


Аппликатура распознанных аккордов:

Добавить комментарий

Оставить комментарий

Кликните на изображение чтобы обновить код, если он неразборчив