{instrum_title}

Testament - Cotlod Аккорды, Табы


         Title : C.O.T.L.O.D
Transcribed by : Jarle Hille Olsen

Legend
------
 h  = hammer-on
 p  = pull-off
 b  = bend
 r  = bend release
 /  = slide up/down
 = natural harmonic
[5] = artifical harmonic
 ~  = vibrato
 tr = trill

   Rhy. Fig. 1 (Gtr.1&2)
E|----------------------------------------------------------------------
B|----------------------------------------------------------------------
G|----------------------------------------------------------------------
D|-2---------------------------7-9-----------------------------4-2------
A|-2---------------------------5-7-----------------------------2-2------
E|-0-0-0-0-0-0-0-0-0-0-0-0-0-0-----0-0-0-0-0-0-0-0-0-0-0-0-0-0---0-0--0-

                                       Bridge
E|---------------------------------||----------------------------------
B|--------------------------------*||----------------------------------
G|---------------------------------||----------------------------------
D|-------------------5---5-7---7---||--5---5-7---7-5---5-7---7-5---5-7-
A|-------------------3-5-3-5-7-5--*||--3-5-3-5-7-5-3-5-3-5-7-5-3-5-3-5-
E|--0--0-0-0-0-0-0-0---3-----5-----||----3-----5-----3-----5-----3-----

                  Rhy. Fig. 2 (Gtr.1&2)
E|--------*|-||--------------------------------------------------------
B|--------*|-||*-------------------------------------------------------
G|--------*|-||--------------------------------------------------------
D|---7-2--*|-||---9-------------------------10-9-----------------------
A|-7-5-2--*|-||*--7--------------------------8-7-----------------------
E|-5---0--*|-||-----0-0-0-0-0-0-0-0-0-0-0-0------0-0-0-0-0-0-0-0-0-0-0-

                                                    2nd each time at the end
E|----------------------------------------------||---------------------
B|---------------------------------------------*||---------------------
G|----------------------------------------------||---------------------
D|---12-9-------------------------5---5-7---7---||--12-11-12-11-9-11-9-
A|---10-7-------------------------3-5-3-5-7-5--*||--10--9-10--9-7--9-7-
E|-0------0-0-0-0-0-0-0-0-0-0-0-0---3-----5-----||---------------------

               Bridge2                                   Rhy. Fig.3 (Gtr.1&2)
E|----------*|--------------------------------------||-----------------
B|----------*|--------------------------------------||*----------------
G|----------*|-7-6-7-9-7-6-7-6----------------------||-----------------
D|----------*|-5-4-5-7-5-4-5-4-9-7-9-7-5-4-5--------||---2-------------
A|----------*|-----------------7-5-7-5-3-2-3-5-4-5--||*--2-------------
E|----------*|-------------------------------3-2-3--||---0-0-0-0-0-0-0-

E|---------------------------------------------------------------------
B|---------------------------------------------------------------------
G|---------------------------------------------------------------------
D|-------------------5---------------------------------7---------------
A|-------------------5---------------------------------7---------------
E|-0-0-0-0-0-0-0-0-0-3-0-0-0-0-0-0-0-0-0-0-0-0-0-0-0-0-5-0-0-0-0-0-0-0-

                                           Rhy. Fig. 4 (Gtr.2/Gtr.1)
E|---------------------------------||--||------------------------------
B|--------------------------------*||--||*-----------------------------
G|---------------------------------||--||------------------------------
D|---------------------------------||--||----7--8--9-------------------
A|-------------------5-4-5-4-2-4--*||--||*---5--6--7-------------------
E|-0-0-0-0-0-0-0-0-0-3-2-3-2-0-2---||--||------------0-0-0-0-0-0-0-0-0-

E|---------------------------------------------------------------------
B|---------------------------------------------------------------------
G|---------------------------------------------------------------------
D|-------------------------------7-7-8-9-------------------------------
A|-------------------------------5-5-6-7-------------------------------
E|-0-0-0-0-0-0-0-0-0-0-0-0-0-0-0---------0-0-0-0-0-0-0-0-0-0-0-0-0-0-0-

                            Guitar solo(Gtr.1 Eric)
E|-----------------------||------------12-12-12-12-13-12-10-12-12-12-12-
B|----------------------*||---------------------------------------------
G|-----------------------||---------------------------------------------
D|-----------------------||---------------------------------------------
A|----------------------*||------------------------------------------
E|-0-0-0-0-0-0-0-0-0-----||-3-------------------------------------------

E|-13-12-10-----------------------------------------------------------13-
B|----------12-12-12-12-13-12-10-----------------------------13-12-10----
G|-------------------------------9~--12-11-9-12-11-9-12-11-9-------------
D|-----------------------------------------------------------------------
A|-----------------------------------------------------------------------
E|-----------------------------------------------------------------------

E|-13-13-13-13-13-12-10-12--12-17-12-12-12-17-12-12-12-17-12-12-12-17-12-
B|-----------------------------------------------------------------------
G|-----------------------------------------------------------------------
D|-----------------------------------------------------------------------
A|-----------------------------------------------------------------------
E|-----------------------------------------------------------------------

E|-12-12----------------------------------12----12----------12---------
B|-------12h17-12----------------------12----15----12----12----15b17---
G|----------------12h16-12-14-12----14----------------12---------------
D|-------------------------------14------------------------------------
A|---------------------------------------------------------------------
E|---------------------------------------------------------------------

          Guitar solo(Gtr.2 Alex)
E|-----||---------------------------------------------------------------
B|-----||-19b20---r19~-19b20---r19~-20p19-17-15h17-15-13h15-13-12h13-12-
G|-----||---------------------------------------------------------------
D|-----||---------------------------------------------------------------
A|-----||---------------------------------------------------------------
E|-----||---------------------------------------------------------------

E|----------------------------------------------------------------------
B|----------------------------------------------------------------------
G|-(14)--r--p12-14~-12-11-9----11-9-7----9-7-5--------------------------
D|--------------------------12--------10-------9/12-10-9----10-9-7----9-
A|-------------------------------------------------------12--------10---
E|----------------------------------------------------------------------

E|---------------------------------------------------------------------
B|-----------------------------------------------------------
G|------------------------------------------------------------------
D|-7-5---9~--/10p9-75-9-7-54--------------------------------------
A|-----9-----------------------7p5-32---------------------------------
E|-------------------------------------5p3-2-0-------------------------

E|--------*|-----------
B|------------*|-----------
G|------------*|-----------
D|------------*|-----------
A|------------*|-----------
E|------------*|-----------
шаблоны для dle 11.2
https://guitar1st.ru/22709-cotlod.html
Пожалуйста не удаляйте ссылку на источник!

Видео


Аппликатура распознанных аккордов:

Добавить комментарий

Оставить комментарий

Кликните на изображение чтобы обновить код, если он неразборчив