{instrum_title}

Testament - Low Аккорды, Табы


LOW
FROM THE ALBUM LOW
|-------------------------------------|
|-------------------------------------|
|-------------------------------------|
|--2----------2-----------2---------2-|
|--2----------2-----------2---------2-|
|--0-0-0-0-0--0-----------0-0-0-0-0-0-|
|------------------------------------------------------------|
|------------------------------------------------------------|
|------------------------------------------------9-9-9-9-9-9-|
|-----2------------2----------2-2-2--------------9-9-9-9-9-9-|
|-----2------------2----------2-2-2--------------7-7-7-7-7-7-|
|-----0-0-0-0-0-0--0----------0-0-0--3---5---6---0-0-0-0-0-0-|

|---------------------------------------------------------|
|-9-9-9-9-9-9---------------------------------------------|
|-9-9-9-9-9-9---------------------------------------------|
|-9-9-9-9-9-9-----------2-------------2-2-2-2-2-2---2---2-|
|-7-7-7-7-7-7-----------2-------------2-2-2-2-2-2---2---2-|
|-0-0-0-0-0-0-----------0--3---5--6---0-0-0-0-0-0---0---0-|

HALF-TIME
Rhy.Fig 1A
|--------------------------------------------------------------|
|--------------------------------------------------------------|
|-----------------------------------------------------9---8--8-|
|---2--2--2-------------------------2-2-2-------------9---8--8-|
|---2--2--2-----------2-2-2-----4---2-2-2-------------7---6--6-|
|---0--0--0--3---6----0-0-0--3------0-0-0---3---6--0-----------|
2X
ORIGINAL TIME

|----------------------------------------------------|
|----------------------------------------18--(1/2)---|
|-----15----------12-(12)---------15-----------------|
|----------------------------------------------------|
|----------------------------------------------------|
|----------------------------------------------------|
|-----------------------------------------------------|
|-----------------------------------------------------|
|------15---------12--(12)-------15-------2//(12)-----|
|-----------------------------------------------------|
|-----------------------------------------------------|
|-----------------------------------------------------|
Rhy.Fig 3
E5--------D5--E5----F5-F#5-G5-----E5-------C#5-D5-A5-C5-C#5-G#5-D5
End Rhy.Fig 3
VERSE PLAY Rhy.Fig 3
CHORUS PLAY Rhy.Fig 1A
2X

BRIDGE
                     HARM
|------------------------------------------------|
|------------------------------------------------|
|--------------------7----------(7)-------(7)----|
|--------------------7----------(7)-------(7)----|
|------------------------------------------------|
|------------------------------------------------|

GUITAR SOLO (JAMES)

|-------------------------------------------------------|
|--------------------14---12------------------12-(1/2)--|
|----16-16--15(1/2)--14---12-(1/2)------------12--------|
|---------------------------------14--12--14------------|
|-------------------------------------------------------|
|-------------------------------------------------------|
|--------------------------------------------------------------|
|----12--------------------------------------------------------|
|----12------------15-----------------------16-------------17--|
|---------14--12---------------14-12-14----------14-12-14------|
|--------------------------------------------------------------|
|--------------------------------------------------------------|
|---------------------------------|
|---------------------------------|
|--------------17-------------16--|
|----14-12--14-----14-12-14-------|
|---------------------------------|
|---------------------------------|
|---------------------------------------------------------------------------|
|-------------------------------------------------14-12---------------------|
|---19171617161716--16---------------1616-15(1/2)-14-12---------------------|
|-----------------19--1917-16-1716----------------------14-12-14-17--161416-|
|---------------------------------------------------------------------------|
|---------------------------------------------------------------------------|
(sweep pick)
|------------10--------14--10--14--17--14--17-14---14------17--|
|----------12-----------------------------------15-------------|
|--------12----------------------------------------------------|
|------14------------------------------------------------------|
|----15--------------------------------------------------------|
|--------------------------------------------------------------|
|-----19--19---------------------------------15-(15)--(15)--|
|---------------------------14-12---------------------------|
|-----------------16-16-15--14-12---------------------------|
|---------------------------------14--12--14----------------|
|-----------------------------------------------------------|
|-----------------------------------------------------------|

HALF TIME WITH Rhy.Fig 1A

|---------------------121316131213131613121312---12----------------|
|----15--(15)--121315--------------------------15---15-13-12-13-15-|
|------------------------------------------------------------------|
|------------------------------------------------------------------|
|------------------------------------------------------------------|
|------------------------------------------------------------------|

|--12-13-16-12-13-12-13-12---12---------------------------------------------|
|-------------------------15----15-13-15-13-12-13-12--12--------------------|
|----------------------------------------------------14--14-13-14-13-10-13--|
|---------------------------------------------------------------------------|
|---------------------------------------------------------------------------|
|---------------------------------------------------------------------------|

|------------------------------------------------------------|
|------------------------------------------------------------|
|--------------15---------------18---------------14----1416--|
|----141412-14-----12-141412-14-----1416-17141617--1617------|
|------------------------------------------------------------|
|------------------------------------------------------------|

|----------------------------------------|
|------------------15--------------------|
|-----141617141617---15-(15)///////------|
|---17-----------------------------------|
|----------------------------------------|
|----------------------------------------|
END SOLO
ORIGINAL TIME
|--------------------------------------------------------------|
|--------------------------------------------17-19-(19)-----17-|
|---15--------12-----------15------15-16-18--------------------|
|--------------------------------------------------------------|
|--------------------------------------------------------------|
|--------------------------------------------------------------|

|------------------------------------------------|
|------------------------------------------------|
|------15------12---------------2-(2)------X-X---|
|------------------------------------------------|
|------------------------------------------------|
|------------------------------------------------|
VERSE 3
THEN PLAY THE INTRO AS  OUTRO

END

BY KIRK2 eriks@east.no
шаблоны для dle 11.2
https://guitar1st.ru/22717-low.html
Пожалуйста не удаляйте ссылку на источник!

Видео


Аппликатура распознанных аккордов:

Добавить комментарий

Оставить комментарий

Кликните на изображение чтобы обновить код, если он неразборчив