{instrum_title}

Tool - Triad Аккорды, Табы


tabed by:$
artist:tool
song title: Triad
album:lateralus
2001 volcano records
track:#11
tuning: ( d , a , d , e , b , g ) drop-d everybody!
~~~~~~~~~~~~~~~~~~~~~~~~~~~~~~~~~~~~~~~~~~~~~~~~~~~~~~~~~~~~~~~~~~~~~~~~~~~~~~~
                                T ~R ~I ~A ~D
intro:
e:----------------------------------------------------------------
b:----------------------------------------------------------------
g:----------------------------------------------------------------
d:-2-2--2-2--2-2-------------2-2--2-2--2-2------------------------ 
a:-2-2--2-2--2-2-------------2-2--2-2--2-2------------------------
d:-2-2--2-2--2-2-2h3-2p0h2---2-2--2-2--2-2--2h3-2h3-2p0h2---------
repeat this riff for about 1:20/or less.
begining of solo:
e:-----------------------------------------------------------------------------
b:-----------------------------------------------------------------------------
g:-----------------------------------------------------------------------------
d:-----------------------------------------------------------------------------
a:-----------------------------------------------------------------------------
d://///////////////////////////////////////////////////////////////////////////
use a wah & also use your pick to slide down the e-string with!
e:-----------------------------------------------------------------------------
b:-----------------------------------------------------------------------------
g:-----------------------------------------------------------------------------
d:-----------------------------------------------------------------------------
a:-----------------------------------------------------------------------------
d:\\
It took me a while to figure out weather or not this intro to the solo is
pick sliding but it is,and it sounds totally bitch'n when played with a wah
and some heavy distortion.
e:-----------------------------------------------------------------------------
b:-12-12-10-11/9/7/5***-----3h5--3h5-3~~~-----12-10-11--7h9-7h8-7-7/5----------
g:-----------------------------------------------------------------------------
d:-----------------------------------------------------------------------------
a:-----------------------------------------------------------------------------
d:-----------------------------------------------------------------------------
e:-----------------------------------------------------------------------------
b:-----------------------------------------------------------------------------
g:-----------------------------------------------------------------------------
d:-----------------------------------------------------------------------------
a:-----------------------------------------------------------------------------
d:\\-2-
pick slide up.
wait about 8 secounds...
e:-----------------------------------------------------------------------------
b:-----------------------------------------------------------------------------
g:-----------------------------------------------------------------------------
d:-----------------------------------------------------------------------------
a:-----------------------------------------------------------------------------
d://///////////////////////\
  pick slide                                                       let it ring!
  >>>>>>>>>>>>>>>>>down>>> 
шаблоны для dle 11.2
https://guitar1st.ru/23331-triad.html
Пожалуйста не удаляйте ссылку на источник!

Видео


Аппликатура распознанных аккордов:

Добавить комментарий

Оставить комментарий

Кликните на изображение чтобы обновить код, если он неразборчив