{instrum_title}

Waters Muddy - I Cant Be Satisfied Аккорды, Табы


 INTRO:

listen to the record and play what you like to play :-)

FIRST VERSE:

e -|-----------------------------------|-
B -|--10/12----------------------------|-
G#-|-----------10/12-------------------|-
E -|---------------------10/12---------|-
B -|-----------------------------------|-
E -|--0----0---0-----0---0-----0-0/3-0-|-

E7 Well I'm gonna way to leave

e -|--------------------------------------|-
B -|-10/12--------------------------------|-
G#-|-----------10/12-10/12----------------|-
E -|-----------------------12⁄------------|-
B -|--------------------------------------|-
E -|--0----0---0------0-----0-----0-0/3-0-|-

E7 won't be back no more

e -|-------------------------------------|-
B -|-10/12-------------------------------|-
G#-|-----------10/12---------------------|-
E -|---------------------10/12-----------|-
B -|-------------------------------------|-
E -|--0----0---0-----0---0-----0-0/3-0---|-

E7 Goin' back down south

e -|-------------------------------------|-
B -|-/3----------------------------------|-
G#-|-----3⁄2-----------------------------|-
E -|----------2/3-2/3--0-----------------|-
B -|-------------------------------------|-
E -|-/3--3⁄2--2/3-2/3--0--0--------------|-

E7 child don't you wonna go

e -|----------------------------------------|-
B -|----------------------------------------|-
G#-|----------------------------------------|-
E -|----------/5---/5~~---------------------|-
B -|-------0--------------------------------|-
E -|--0/3-----/5---/5~~---------------------|-

A7 Lord my troubles

e -|------------------------------------------------------|-
B -|-----------------------------------5d-----------------|-
G#-|--------------------------------------3⁄1-------------|-
E -|----------/5--/5--0-/3-0-/3/3-0-----------3--0--/3-0--|-
B -|-------0----------------------------------------------|-
E -|--0/3-----/5--/5--0-/3-0-/3/3-0----0------0--0--/3 0--|-

A7 will be all over tonight

e -|-------------------------------------------------------|-
B -|--------------10---------------------------------------|-
G#-|-------------------------------------------------------|-
E -|----------/7-------7~----------------------------------|-
B -|-------0-----------------------------------------------|-
E -|--0/3-----/7--10---7~----------------------------------|-

B7 Well you know I just can't be satisfied

e -|------------------------------|------------------------------------|-
B -|------------------------------|---------12-12---------------15-----|-
G#-|------------------------------|--10/12---------12⁄10---------------|-
E -|-7⁄-----3/5-----/3--/3---0----|-----------------------10/12--------|-
B -|------------------------------|------------------------------------|-
E -|-7⁄--0--3/5--0--/3--/3---0----|--0-------------0------0------0--12⁄|-

A7 I just can't keep from cryin' (turnaround)




------------------------
additional lyrics:

Yeah I know my little babe she goin' jump and shout
When the train don't be late boy all my troubles gonna work out
Lord my troubles will be all over tonight
Well you know I can't never be satisfied I just can't keep from cryin'

Well I'm alone in my sleep then I go feel lonely
Lookin' for my woman boy I don't see a dog gone thing
Lord my troubles will be all over tonight
Well you know I just can't be satisfied I just can't keep from cryin'

Yeah I know my little babe she goin' jump and shout
When the train don't be late boy all my troubles gonna work out
Lord my troubles will be all over tonight
Well you know I can't never be satisfied I just can't keep from cryin' 
шаблоны для dle 11.2
https://guitar1st.ru/68127-i-cant-be-satisfied.html
Пожалуйста не удаляйте ссылку на источник!

Видео


Аппликатура распознанных аккордов:

Добавить комментарий

Оставить комментарий

Кликните на изображение чтобы обновить код, если он неразборчив