{instrum_title}

Black Eyed Peas - Pump It Аккорды, Табы


 E|-------------------|
B|-------------------|
G|-------------------|
D|-------------------|
A|-------------------|
E|0-1-4-5-7-8-11-8-7-|

/
repeat this bit x2 |

E|--------------------------------------------------|
B|--------------------------------------------------|
G|--------------------------------------------------|
D|--------------------------------------------------|
A|--------------------------------------------------|
E|8-7-8-7-5-7-5-7-5-4-0-4.-7-5-7-5-4-4-1-4-1-0-1-0.-|

(repeat whole thing, then come here)

E|0---0-1-2-3-4-5.-4-5-7.-7-8-11,-8-11-13.-|
B|--4--------------------------------------|
G|-----------------------------------------|
D|-----------------------------------------|
A|-----------------------------------------|
E|-----------------------------------------|

E|13-12-13-12-10-12-10-12-10-8-7.-8-7-8-7-5-7-5-4-5.-|
B|---------------------------------------------------|
G|---------------------------------------------------|
D|---------------------------------------------------|
A|---------------------------------------------------|
E|---------------------------------------------------| 
шаблоны для dle 11.2
https://guitar1st.ru/73648-pump-it.html
Пожалуйста не удаляйте ссылку на источник!

Видео


Аппликатура распознанных аккордов:

Добавить комментарий

Оставить комментарий

Кликните на изображение чтобы обновить код, если он неразборчив