{instrum_title}

Rob Zombie - Meet The Creeper Аккорды, Табы


Страницы: 1 2
Rob Zombie - Meet The Creeper
Tabbed By: Myke
EMail: A_Violet_Fluid@hotmail.com
Drop D Tuning (Transposed To C )
Intro:
|------------------------------------|
|------------------------------------|
|------------------------------------|
|----------5------------4---------3--|
|--2--2-2--5----2--2-2--4----2-2--3--|
|--2--2-2--5----2--2-2--4----2-2--3--|
Verse:
|---------|
|---------|
|---------|
|---------|
|--2-2-2--|
|--2-2-2--| (Etc)
   .....
Chorus:
|-------------|
|-------------|
|-------------|
|-------------|
|--0-0-0-0-6--|
|--0-0-0-0-6--| (x4)
A_Violet_Fluid@hotmail.com
2OO2
===========
          Tabbed By: Mike Gagnon
          Meet The Creeper
          Rob Zombie
          From: Hell Billy Deluxe
          
          Tune From low to high ( C G C F A D )
          
          Intro
          
          D------------------------
          A------------------------
          F------------------------
          C--2-2-2-5-2-2-2-4-2-2-3-
          G--2-2-2-5-2-2-2-4-2-2-3-
          C--2-2-2-5-2-2-2-4-2-2-3-
          
          Verse
          
          D--------
          A--------
          F--------
          C--2-2-2-
          G--2-2-2-
          C--2-2-2-
          
          Chorus
          
          D------------
          A------------
          F------------
          C-0-0-0-0-6~-
          G-0-0-0-0-6~-
          C-0-0-0-0-6~-
          
          Done, Done, and Done. Just listen to the song to place the parts to the song

шаблоны для dle 11.2

https://guitar1st.ru/27022-meet-the-creeper.html
Пожалуйста не удаляйте ссылку на источник!

Видео


Аппликатура распознанных аккордов:

Добавить комментарий

Оставить комментарий

Кликните на изображение чтобы обновить код, если он неразборчив